  0
SECTION
  2
HEADER
  9
$ACADVER
  1
AC1009
  9
$DWGCODEPAGE
  3
ansi_1252
  9
$INSBASE
 10
0.0
 20
0.0
 30
0.0
  9
$EXTMIN
 10
0.0
 20
0.0
 30
0.0
  9
$EXTMAX
 10
594.0
 20
420.0
 30
0.0
  9
$LIMMIN
 10
0.0
 20
0.0
  9
$LIMMAX
 10
594.0
 20
420.0
  9
$ORTHOMODE
 70
     0
  9
$REGENMODE
 70
     1
  9
$FILLMODE
 70
     1
  9
$QTEXTMODE
 70
     0
  9
$MIRRTEXT
 70
     1
  9
$DRAGMODE
 70
     2
  9
$LTSCALE
 40
1.0
  9
$OSMODE
 70
    37
  9
$ATTMODE
 70
     1
  9
$TEXTSIZE
 40
2.5
  9
$TRACEWID
 40
1.0
  9
$TEXTSTYLE
  7
STANDARD
  9
$CLAYER
  8
0
  9
$CELTYPE
  6
BYLAYER
  9
$CECOLOR
 62
   256
  9
$DIMSCALE
 40
1.0
  9
$DIMASZ
 40
2.5
  9
$DIMEXO
 40
0.625
  9
$DIMDLI
 40
3.75
  9
$DIMRND
 40
0.0
  9
$DIMDLE
 40
0.0
  9
$DIMEXE
 40
1.25
  9
$DIMTP
 40
0.0
  9
$DIMTM
 40
0.0
  9
$DIMTXT
 40
2.5
  9
$DIMCEN
 40
2.5
  9
$DIMTSZ
 40
0.0
  9
$DIMTOL
 70
     0
  9
$DIMLIM
 70
     0
  9
$DIMTIH
 70
     0
  9
$DIMTOH
 70
     0
  9
$DIMSE1
 70
     0
  9
$DIMSE2
 70
     0
  9
$DIMTAD
 70
     1
  9
$DIMZIN
 70
     8
  9
$DIMBLK
  1

  9
$DIMASO
 70
     1
  9
$DIMSHO
 70
     1
  9
$DIMPOST
  1

  9
$DIMAPOST
  1

  9
$DIMALT
 70
     0
  9
$DIMALTD
 70
     3
  9
$DIMALTF
 40
0.0393700787
  9
$DIMLFAC
 40
1.0
  9
$DIMTOFL
 70
     1
  9
$DIMTVP
 40
0.0
  9
$DIMTIX
 70
     0
  9
$DIMSOXD
 70
     0
  9
$DIMSAH
 70
     0
  9
$DIMBLK1
  1

  9
$DIMBLK2
  1

  9
$DIMSTYLE
  2
ISO-25
  9
$DIMCLRD
 70
     0
  9
$DIMCLRE
 70
     0
  9
$DIMCLRT
 70
     0
  9
$DIMTFAC
 40
1.0
  9
$DIMGAP
 40
0.625
  9
$LUNITS
 70
     2
  9
$LUPREC
 70
     4
  9
$SKETCHINC
 40
1.0
  9
$FILLETRAD
 40
10.0
  9
$AUNITS
 70
     0
  9
$AUPREC
 70
     0
  9
$MENU
  1
.
  9
$ELEVATION
 40
0.0
  9
$PELEVATION
 40
0.0
  9
$THICKNESS
 40
0.0
  9
$LIMCHECK
 70
     0
  9
$CHAMFERA
 40
0.0
  9
$CHAMFERB
 40
0.0
  9
$SKPOLY
 70
     0
  9
$TDCREATE
 40
2458171.669940451
  9
$TDUPDATE
 40
2458171.669952188
  9
$TDINDWG
 40
0.0000000116
  9
$TDUSRTIMER
 40
0.0000000116
  9
$USRTIMER
 70
     1
  9
$ANGBASE
 50
0.0
  9
$ANGDIR
 70
     0
  9
$PDMODE
 70
     0
  9
$PDSIZE
 40
0.0
  9
$PLINEWID
 40
0.0
  9
$COORDS
 70
     1
  9
$SPLFRAME
 70
     0
  9
$SPLINETYPE
 70
     6
  9
$SPLINESEGS
 70
     8
  9
$ATTDIA
 70
     0
  9
$ATTREQ
 70
     1
  9
$HANDLING
 70
     1
  9
$HANDSEED
  5
9C
  9
$SURFTAB1
 70
     6
  9
$SURFTAB2
 70
     6
  9
$SURFTYPE
 70
     6
  9
$SURFU
 70
     6
  9
$SURFV
 70
     6
  9
$UCSNAME
  2

  9
$UCSORG
 10
0.0
 20
0.0
 30
0.0
  9
$UCSXDIR
 10
1.0
 20
0.0
 30
0.0
  9
$UCSYDIR
 10
0.0
 20
1.0
 30
0.0
  9
$PUCSNAME
  2

  9
$PUCSORG
 10
0.0
 20
0.0
 30
0.0
  9
$PUCSXDIR
 10
1.0
 20
0.0
 30
0.0
  9
$PUCSYDIR
 10
0.0
 20
1.0
 30
0.0
  9
$USERI1
 70
     0
  9
$USERI2
 70
     0
  9
$USERI3
 70
     0
  9
$USERI4
 70
     0
  9
$USERI5
 70
     0
  9
$USERR1
 40
0.0
  9
$USERR2
 40
0.0
  9
$USERR3
 40
0.0
  9
$USERR4
 40
0.0
  9
$USERR5
 40
0.0
  9
$WORLDVIEW
 70
     1
  9
$SHADEDGE
 70
     3
  9
$SHADEDIF
 70
    70
  9
$TILEMODE
 70
     1
  9
$MAXACTVP
 70
    64
  9
$PLIMCHECK
 70
     0
  9
$PEXTMIN
 10
0.0
 20
0.0
 30
0.0
  9
$PEXTMAX
 10
594.0
 20
420.0
 30
0.0
  9
$PLIMMIN
 10
0.0
 20
0.0
  9
$PLIMMAX
 10
594.0
 20
420.0
  9
$UNITMODE
 70
     0
  9
$VISRETAIN
 70
     1
  9
$PLINEGEN
 70
     0
  9
$PSLTSCALE
 70
     1
  0
ENDSEC
  0
SECTION
  2
TABLES
  0
TABLE
  2
VPORT
 70
     1
  0
VPORT
  2
*ACTIVE
 70
     0
 10
0.0
 20
0.0
 11
1.0
 21
1.0
 12
344.1869158879
 22
148.5
 13
0.0
 23
0.0
 14
10.0
 24
10.0
 15
10.0
 25
10.0
 16
0.0
 26
0.0
 36
1.0
 17
0.0
 27
0.0
 37
0.0
 40
297.0
 41
1.9729729729
 42
50.0
 43
0.0
 44
0.0
 50
0.0
 51
0.0
 71
     0
 72
   100
 73
     1
 74
     3
 75
     0
 76
     0
 77
     0
 78
     0
  0
ENDTAB
  0
TABLE
  2
LTYPE
 70
     1
  0
LTYPE
  2
CONTINUOUS
 70
     0
  3
Solid line
 72
    65
 73
     0
 40
0.0
  0
ENDTAB
  0
TABLE
  2
LAYER
 70
     2
  0
LAYER
  2
0
 70
     0
 62
     7
  6
CONTINUOUS
  0
LAYER
  2
PREDEFINITO
 70
     0
 62
     7
  6
CONTINUOUS
  0
ENDTAB
  0
TABLE
  2
STYLE
 70
     1
  0
STYLE
  2
STANDARD
 70
     0
 40
0.0
 41
1.0
 50
0.0
 71
     0
 42
2.5
  3
txt
  4

  0
ENDTAB
  0
TABLE
  2
VIEW
 70
     0
  0
ENDTAB
  0
TABLE
  2
UCS
 70
     0
  0
ENDTAB
  0
TABLE
  2
APPID
 70
     1
  0
APPID
  2
ACAD
 70
     0
  0
ENDTAB
  0
TABLE
  2
DIMSTYLE
 70
     1
  0
DIMSTYLE
  2
ISO-25
 70
     0
  3

  4

  5

  6

  7

 40
1.0
 41
2.5
 42
0.625
 43
3.75
 44
1.25
 45
0.0
 46
0.0
 47
0.0
 48
0.0
140
2.5
141
2.5
142
0.0
143
0.0393700787
144
1.0
145
0.0
146
1.0
147
0.625
 71
     0
 72
     0
 73
     0
 74
     0
 75
     0
 76
     0
 77
     1
 78
     8
170
     0
171
     3
172
     1
173
     0
174
     0
175
     0
176
     0
177
     0
178
     0
  0
ENDTAB
  0
ENDSEC
  0
SECTION
  2
BLOCKS
  0
BLOCK
  8
0
  2
$MODEL_SPACE
 70
     0
 10
0.0
 20
0.0
 30
0.0
  3
$MODEL_SPACE
  1

  0
ENDBLK
  5
21
  8
0
  0
BLOCK
 67
     1
  8
0
  2
$PAPER_SPACE
 70
     0
 10
0.0
 20
0.0
 30
0.0
  3
$PAPER_SPACE
  1

  0
ENDBLK
  5
1D
 67
     1
  8
0
  0
ENDSEC
  0
SECTION
  2
ENTITIES
  0
LINE
  5
6F
  8
PREDEFINITO
  6
CONTINUOUS
 62
     7
 10
36.2613476261
 20
42.6651412082
 30
0.0
 11
38.2613476261
 21
42.6651412082
 31
0.0
  0
ARC
  5
70
  8
PREDEFINITO
  6
CONTINUOUS
 62
     7
 10
35.1613476261
 20
32.2651412082
 30
0.0
 40
0.4000000000000045
 50
90.0
 51
195.0
  0
LINE
  5
71
  8
PREDEFINITO
  6
CONTINUOUS
 62
     7
 10
34.7749772955
 20
32.1616135902
 30
0.0
 11
35.2613476261
 21
30.3464548054
 31
0.0
  0
LINE
  5
72
  8
PREDEFINITO
  6
CONTINUOUS
 62
     7
 10
35.2613476261
 20
30.3464548054
 30
0.0
 11
35.2613476261
 21
13.6651412082
 31
0.0
  0
LINE
  5
73
  8
PREDEFINITO
  6
CONTINUOUS
 62
     7
 10
22.2613476261
 20
30.3464548054
 30
0.0
 11
22.7477179566
 21
32.1616135902
 31
0.0
  0
ARC
  5
74
  8
PREDEFINITO
  6
CONTINUOUS
 62
     7
 10
22.3613476261
 20
32.2651412082
 30
0.0
 40
0.399999999999998
 50
345.0
 51
90.0
  0
LINE
  5
75
  8
PREDEFINITO
  6
CONTINUOUS
 62
     7
 10
22.3613476261
 20
32.6651412082
 30
0.0
 11
19.2613476261
 21
32.6651412082
 31
0.0
  0
LINE
  5
76
  8
PREDEFINITO
  6
CONTINUOUS
 62
     7
 10
18.7613476261
 20
36.4166130708
 30
0.0
 11
19.5856116948
 21
37.2408771395
 31
0.0
  0
ARC
  5
77
  8
PREDEFINITO
  6
CONTINUOUS
 62
     7
 10
19.1613476261
 20
37.6651412082
 30
0.0
 40
0.5999999999999566
 50
315.0
 51
45.0
  0
LINE
  5
78
  8
PREDEFINITO
  6
CONTINUOUS
 62
     7
 10
19.5856116948
 20
38.089405277
 30
0.0
 11
18.7613476261
 21
38.9136693457
 31
0.0
  0
LINE
  5
79
  8
PREDEFINITO
  6
CONTINUOUS
 62
     7
 10
18.7613476261
 20
38.9136693457
 30
0.0
 11
18.7613476261
 21
42.1651412082
 31
0.0
  0
LINE
  5
7A
  8
PREDEFINITO
  6
CONTINUOUS
 62
     7
 10
21.2613476261
 20
42.6651412082
 30
0.0
 11
21.2613476261
 21
87.1651412082
 31
0.0
  0
LINE
  5
7B
  8
PREDEFINITO
  6
CONTINUOUS
 62
     7
 10
25.8792936197
 20
87.5430045564
 30
0.0
 11
28.4016777259
 21
84.9309993515
 31
0.0
  0
ARC
  5
7C
  8
PREDEFINITO
  6
CONTINUOUS
 62
     7
 10
25.5915576996
 20
87.2651412082
 30
0.0
 40
0.3999999999999981
 50
44.0
 51
90.0
  0
LINE
  5
7D
  8
PREDEFINITO
  6
CONTINUOUS
 62
     7
 10
31.9311375525
 20
87.6651412082
 30
0.0
 11
35.7613476261
 21
87.6651412082
 31
0.0
  0
ARC
  5
7E
  8
PREDEFINITO
  6
CONTINUOUS
 62
     7
 10
31.9311375525
 20
87.2651412082
 30
0.0
 40
0.3999999999999976
 50
90.0
 51
136.0
  0
LINE
  5
7F
  8
PREDEFINITO
  6
CONTINUOUS
 62
     7
 10
29.1210175262
 20
84.9309993515
 30
0.0
 11
31.6434016324
 21
87.5430045564
 31
0.0
  0
ARC
  5
80
  8
PREDEFINITO
  6
CONTINUOUS
 62
     7
 10
28.7613476261
 20
85.2783285367
 30
0.0
 40
0.5000000000000004
 50
224.0
 51
316.0
  0
LINE
  5
81
  8
PREDEFINITO
  6
CONTINUOUS
 62
     7
 10
34.2613476261
 20
12.6651412082
 30
0.0
 11
23.2613476261
 21
12.6651412082
 31
0.0
  0
LINE
  5
82
  8
PREDEFINITO
  6
CONTINUOUS
 62
     7
 10
22.2613476261
 20
13.6651412082
 30
0.0
 11
22.2613476261
 21
30.3464548054
 31
0.0
  0
LINE
  5
83
  8
PREDEFINITO
  6
CONTINUOUS
 62
     7
 10
22.2613476261
 20
13.6651412082
 30
0.0
 11
23.2613476261
 21
12.6651412082
 31
0.0
  0
LINE
  5
84
  8
PREDEFINITO
  6
CONTINUOUS
 62
     7
 10
34.2613476261
 20
12.6651412082
 30
0.0
 11
35.2613476261
 21
13.6651412082
 31
0.0
  0
LINE
  5
85
  8
PREDEFINITO
  6
CONTINUOUS
 62
     7
 10
36.2613476261
 20
87.1651412082
 30
0.0
 11
36.2613476261
 21
42.6651412082
 31
0.0
  0
LINE
  5
86
  8
PREDEFINITO
  6
CONTINUOUS
 62
     7
 10
38.2613476261
 20
32.6651412082
 30
0.0
 11
35.1613476261
 21
32.6651412082
 31
0.0
  0
LINE
  5
87
  8
PREDEFINITO
  6
CONTINUOUS
 62
     7
 10
38.7613476261
 20
42.1651412082
 30
0.0
 11
38.7613476261
 21
33.1651412082
 31
0.0
  0
LINE
  5
88
  8
PREDEFINITO
  6
CONTINUOUS
 62
     7
 10
21.7613476261
 20
87.6651412082
 30
0.0
 11
25.5915576996
 21
87.6651412082
 31
0.0
  0
LINE
  5
89
  8
PREDEFINITO
  6
CONTINUOUS
 62
     7
 10
19.2613476261
 20
42.6651412082
 30
0.0
 11
21.2613476261
 21
42.6651412082
 31
0.0
  0
LINE
  5
8A
  8
PREDEFINITO
  6
CONTINUOUS
 62
     7
 10
18.7613476261
 20
33.1651412082
 30
0.0
 11
18.7613476261
 21
36.4166130708
 31
0.0
  0
LINE
  5
8B
  8
PREDEFINITO
  6
CONTINUOUS
 62
     7
 10
38.7613476261
 20
42.1651412082
 30
0.0
 11
38.2613476261
 21
42.6651412082
 31
0.0
  0
LINE
  5
8C
  8
PREDEFINITO
  6
CONTINUOUS
 62
     7
 10
38.2613476261
 20
32.6651412082
 30
0.0
 11
38.7613476261
 21
33.1651412082
 31
0.0
  0
LINE
  5
8D
  8
PREDEFINITO
  6
CONTINUOUS
 62
     7
 10
19.2613476261
 20
42.6651412082
 30
0.0
 11
18.7613476261
 21
42.1651412082
 31
0.0
  0
LINE
  5
8E
  8
PREDEFINITO
  6
CONTINUOUS
 62
     7
 10
18.7613476261
 20
33.1651412082
 30
0.0
 11
19.2613476261
 21
32.6651412082
 31
0.0
  0
LINE
  5
8F
  8
PREDEFINITO
  6
CONTINUOUS
 62
     7
 10
21.7613476261
 20
87.6651412082
 30
0.0
 11
21.2613476261
 21
87.1651412082
 31
0.0
  0
LINE
  5
90
  8
PREDEFINITO
  6
CONTINUOUS
 62
     7
 10
36.2613476261
 20
87.1651412082
 30
0.0
 11
35.7613476261
 21
87.6651412082
 31
0.0
  0
ENDSEC
  0
EOF
