  0
SECTION
  2
HEADER
  9
$ACADVER
  1
AC1009
  9
$INSBASE
 10
0.0
 20
0.0
 30
0.0
  9
$EXTMIN
 10
-49.007262262756967
 20
-0.8021385916533745
 30
-0.0015258207003583
  9
$EXTMAX
 10
6.0113530350050723
 20
133.8167729624742
 30
0.0000000349246037
  9
$LIMMIN
 10
0.0
 20
0.0
  9
$LIMMAX
 10
420.0
 20
297.0
  9
$ORTHOMODE
 70
     0
  9
$REGENMODE
 70
     1
  9
$FILLMODE
 70
     1
  9
$QTEXTMODE
 70
     0
  9
$MIRRTEXT
 70
     1
  9
$DRAGMODE
 70
     2
  9
$LTSCALE
 40
1.0
  9
$OSMODE
 70
    45
  9
$ATTMODE
 70
     1
  9
$TEXTSIZE
 40
2.5
  9
$TRACEWID
 40
1.0
  9
$TEXTSTYLE
  7
STANDARD
  9
$CLAYER
  8
0
  9
$CELTYPE
  6
BYLAYER
  9
$CECOLOR
 62
   256
  9
$DIMSCALE
 40
1.0
  9
$DIMASZ
 40
2.5
  9
$DIMEXO
 40
0.625
  9
$DIMDLI
 40
3.75
  9
$DIMRND
 40
0.0
  9
$DIMDLE
 40
0.0
  9
$DIMEXE
 40
1.25
  9
$DIMTP
 40
0.0
  9
$DIMTM
 40
0.0
  9
$DIMTXT
 40
2.5
  9
$DIMCEN
 40
2.5
  9
$DIMTSZ
 40
0.0
  9
$DIMTOL
 70
     0
  9
$DIMLIM
 70
     0
  9
$DIMTIH
 70
     0
  9
$DIMTOH
 70
     0
  9
$DIMSE1
 70
     0
  9
$DIMSE2
 70
     0
  9
$DIMTAD
 70
     1
  9
$DIMZIN
 70
     8
  9
$DIMBLK
  1

  9
$DIMASO
 70
     1
  9
$DIMSHO
 70
     1
  9
$DIMPOST
  1

  9
$DIMAPOST
  1

  9
$DIMALT
 70
     0
  9
$DIMALTD
 70
     3
  9
$DIMALTF
 40
0.0393700787
  9
$DIMLFAC
 40
1.0
  9
$DIMTOFL
 70
     1
  9
$DIMTVP
 40
0.0
  9
$DIMTIX
 70
     0
  9
$DIMSOXD
 70
     0
  9
$DIMSAH
 70
     0
  9
$DIMBLK1
  1

  9
$DIMBLK2
  1

  9
$DIMSTYLE
  2
ISO-25
  9
$DIMCLRD
 70
     0
  9
$DIMCLRE
 70
     0
  9
$DIMCLRT
 70
     0
  9
$DIMTFAC
 40
1.0
  9
$DIMGAP
 40
0.625
  9
$LUNITS
 70
     2
  9
$LUPREC
 70
     4
  9
$SKETCHINC
 40
1.0
  9
$FILLETRAD
 40
10.0
  9
$AUNITS
 70
     0
  9
$AUPREC
 70
     0
  9
$MENU
  1
.
  9
$ELEVATION
 40
0.0
  9
$PELEVATION
 40
0.0
  9
$THICKNESS
 40
0.0
  9
$LIMCHECK
 70
     0
  9
$BLIPMODE
 70
     0
  9
$CHAMFERA
 40
10.0
  9
$CHAMFERB
 40
10.0
  9
$SKPOLY
 70
     0
  9
$TDCREATE
 40
2456184.436920926
  9
$TDUPDATE
 40
2456184.4373527891
  9
$TDINDWG
 40
0.0002823148
  9
$TDUSRTIMER
 40
0.000281956
  9
$USRTIMER
 70
     1
  9
$ANGBASE
 50
0.0
  9
$ANGDIR
 70
     0
  9
$PDMODE
 70
     0
  9
$PDSIZE
 40
0.0
  9
$PLINEWID
 40
0.0
  9
$COORDS
 70
     1
  9
$SPLFRAME
 70
     0
  9
$SPLINETYPE
 70
     6
  9
$SPLINESEGS
 70
     8
  9
$ATTDIA
 70
     0
  9
$ATTREQ
 70
     1
  9
$HANDLING
 70
-16383
  9
$HANDSEED
  5
B7
  9
$SURFTAB1
 70
     6
  9
$SURFTAB2
 70
     6
  9
$SURFTYPE
 70
     6
  9
$SURFU
 70
     6
  9
$SURFV
 70
     6
  9
$UCSNAME
  2

  9
$UCSORG
 10
0.0
 20
0.0
 30
0.0
  9
$UCSXDIR
 10
1.0
 20
0.0
 30
0.0
  9
$UCSYDIR
 10
0.0
 20
1.0
 30
0.0
  9
$PUCSNAME
  2

  9
$PUCSORG
 10
0.0
 20
0.0
 30
0.0
  9
$PUCSXDIR
 10
1.0
 20
0.0
 30
0.0
  9
$PUCSYDIR
 10
0.0
 20
1.0
 30
0.0
  9
$USERI1
 70
     0
  9
$USERI2
 70
     0
  9
$USERI3
 70
     0
  9
$USERI4
 70
     0
  9
$USERI5
 70
     0
  9
$USERR1
 40
0.0
  9
$USERR2
 40
0.0
  9
$USERR3
 40
0.0
  9
$USERR4
 40
0.0
  9
$USERR5
 40
0.0
  9
$WORLDVIEW
 70
     1
  9
$SHADEDGE
 70
     3
  9
$SHADEDIF
 70
    70
  9
$TILEMODE
 70
     1
  9
$MAXACTVP
 70
    64
  9
$PLIMCHECK
 70
     0
  9
$PEXTMIN
 10
0.0
 20
0.0
 30
0.0
  9
$PEXTMAX
 10
420.0
 20
297.0
 30
0.0
  9
$PLIMMIN
 10
0.0
 20
0.0
  9
$PLIMMAX
 10
420.0
 20
297.0
  9
$UNITMODE
 70
     0
  9
$VISRETAIN
 70
     1
  9
$PLINEGEN
 70
     0
  9
$PSLTSCALE
 70
     1
  0
ENDSEC
  0
SECTION
  2
TABLES
  0
TABLE
  2
VPORT
 70
     2
  0
VPORT
  2
*ACTIVE
 70
     0
 10
0.0
 20
0.0
 11
1.0
 21
1.0
 12
-21.49795461387594
 22
66.507317185410443
 13
0.0
 23
0.0
 14
10.0
 24
10.0
 15
10.0
 25
10.0
 16
0.0
 26
0.0
 36
1.0
 17
0.0
 27
0.0
 37
0.0
 40
135.47635685065069
 41
1.6769394261424011
 42
50.0
 43
0.0
 44
0.0
 50
0.0
 51
0.0
 71
     0
 72
   100
 73
     1
 74
     3
 75
     0
 76
     0
 77
     0
 78
     0
  0
ENDTAB
  0
TABLE
  2
LTYPE
 70
     2
  0
LTYPE
  2
CONTINUOUS
 70
     0
  3
Solid line
 72
    65
 73
     0
 40
0.0
  0
LTYPE
  2
CENTER2
 70
     0
  3
Center (.5x) ___ _ ___ _ ___ _ ___ _ ___ _ ___
 72
    65
 73
     4
 40
28.574999999999989
 49
19.050000000000001
 49
-3.1749999999999989
 49
3.1749999999999989
 49
-3.1749999999999989
  0
ENDTAB
  0
TABLE
  2
LAYER
 70
     3
  0
LAYER
  2
0
 70
     0
 62
     7
  6
CONTINUOUS
  0
LAYER
  2
DEFAULT
 70
     0
 62
     7
  6
CONTINUOUS
  0
LAYER
  2
DV1_PREDEFINITO
 70
     0
 62
     7
  6
CONTINUOUS
  0
ENDTAB
  0
TABLE
  2
STYLE
 70
     1
  0
STYLE
  2
STANDARD
 70
     0
 40
0.0
 41
1.0
 50
0.0
 71
     0
 42
2.5
  3
txt
  4

  0
ENDTAB
  0
TABLE
  2
VIEW
 70
     0
  0
ENDTAB
  0
TABLE
  2
UCS
 70
     0
  0
ENDTAB
  0
TABLE
  2
APPID
 70
     1
  0
APPID
  2
ACAD
 70
     0
  0
ENDTAB
  0
TABLE
  2
DIMSTYLE
 70
     1
  0
DIMSTYLE
  2
ISO-25
 70
     0
  3

  4

  5

  6

  7

 40
1.0
 41
2.5
 42
0.625
 43
3.75
 44
1.25
 45
0.0
 46
0.0
 47
0.0
 48
0.0
140
2.5
141
2.5
142
0.0
143
0.0393700787
144
1.0
145
0.0
146
1.0
147
0.625
 71
     0
 72
     0
 73
     0
 74
     0
 75
     0
 76
     0
 77
     1
 78
     8
170
     0
171
     3
172
     1
173
     0
174
     0
175
     0
176
     0
177
     0
178
     0
  0
ENDTAB
  0
ENDSEC
  0
SECTION
  2
BLOCKS
  0
BLOCK
  8
0
  2
$MODEL_SPACE
 70
     0
 10
0.0
 20
0.0
 30
0.0
  3
$MODEL_SPACE
  1

  0
ENDBLK
  5
21
  8
0
  0
BLOCK
 67
     1
  8
0
  2
$PAPER_SPACE
 70
     0
 10
0.0
 20
0.0
 30
0.0
  3
$PAPER_SPACE
  1

  0
ENDBLK
  5
1D
 67
     1
  8
0
  0
BLOCK
  8
0
  2
SE
 70
     0
 10
0.0
 20
0.0
 30
0.0
  3
SE
  1

  0
LINE
  5
43
  8
DV1_PREDEFINITO
  6
CONTINUOUS
 62
     7
 10
72.416496060699998
 20
159.9795302949999
 30
0.0
 11
113.8422686311
 21
114.77123252539999
 31
0.0
  0
ARC
  5
44
  8
DV1_PREDEFINITO
  6
CONTINUOUS
 62
     7
 10
109.41849606069989
 20
110.7175918123999
 30
0.0
 40
6.0001472303604757
 50
1.5841591549
 51
42.5
  0
LINE
  5
45
  8
DV1_PREDEFINITO
  6
CONTINUOUS
 62
     7
 10
115.4163500136
 20
110.8834675059
 30
0.0
 11
120.8266749214
 21
104.9791339404
 31
0.0
  0
ARC
  5
46
  8
DV1_PREDEFINITO
  6
CONTINUOUS
 62
     7
 10
121.4164967907999
 20
105.51960610649989
 30
0.0
 40
0.8
 50
222.5
 51
317.5
  0
LINE
  5
47
  8
DV1_PREDEFINITO
  6
CONTINUOUS
 62
     7
 10
122.0063186603
 20
104.9791339404
 30
0.0
 11
127.4165004315999
 21
110.8833112999
 31
0.0
  0
LINE
  5
48
  8
DV1_PREDEFINITO
  6
CONTINUOUS
 62
     7
 10
127.4165004315999
 20
110.8833112999
 30
0.0
 11
127.4165004315999
 21
110.95668008289999
 31
0.0
  0
LINE
  5
49
  8
DV1_PREDEFINITO
  6
CONTINUOUS
 62
     7
 10
127.4165004315999
 20
110.95668008289999
 30
0.0
 11
103.01598871509999
 21
153.21960610650001
 31
0.0
  0
ARC
  5
4A
  8
DV1_PREDEFINITO
  6
CONTINUOUS
 62
     7
 10
120.3364967908
 20
163.21960610650001
 30
0.0
 40
20.0
 50
135.0
 51
210.0
  0
LINE
  5
4B
  8
DV1_PREDEFINITO
  6
CONTINUOUS
 62
     7
 10
106.1943611670999
 20
177.36174173029991
 30
0.0
 11
127.4165004315999
 21
198.5838809947999
 31
0.0
  0
LINE
  5
4C
  8
DV1_PREDEFINITO
  6
CONTINUOUS
 62
     7
 10
127.4165004315999
 20
198.5838809947999
 30
0.0
 11
127.4165004315999
 21
208.8196061065
 31
0.0
  0
LINE
  5
4D
  8
DV1_PREDEFINITO
  6
CONTINUOUS
 62
     7
 10
115.83188457289999
 20
209.3196061065
 30
0.0
 11
114.4165004316
 21
207.90422196519989
 31
0.0
  0
LINE
  5
4E
  8
DV1_PREDEFINITO
  6
CONTINUOUS
 62
     7
 10
114.4165004316
 20
207.90422196519989
 30
0.0
 11
113.0011162903
 21
209.3196061065
 31
0.0
  0
LINE
  5
4F
  8
DV1_PREDEFINITO
  6
CONTINUOUS
 62
     7
 10
113.0011162903
 20
209.3196061065
 30
0.0
 11
114.4165004316
 21
210.7349902478
 31
0.0
  0
LINE
  5
50
  8
DV1_PREDEFINITO
  6
CONTINUOUS
 62
     7
 10
114.4165004316
 20
210.7349902478
 30
0.0
 11
114.4165004316
 21
237.31959181240001
 31
0.0
  0
LINE
  5
51
  8
DV1_PREDEFINITO
  6
CONTINUOUS
 62
     7
 10
104.4164934737
 20
222.3195811091999
 30
0.0
 11
104.4164934737
 21
213.9195811091999
 31
0.0
  0
LINE
  5
52
  8
DV1_PREDEFINITO
  6
CONTINUOUS
 62
     7
 10
104.4164934737
 20
213.9195811091999
 30
0.0
 11
101.716491584
 21
213.9195811091999
 31
0.0
  0
LINE
  5
53
  8
DV1_PREDEFINITO
  6
CONTINUOUS
 62
     7
 10
101.4164915839999
 20
209.3196061065
 30
0.0
 11
84.416496060699984
 21
209.3196061065
 31
0.0
  0
LINE
  5
54
  8
DV1_PREDEFINITO
  6
CONTINUOUS
 62
     7
 10
112.4165004316
 20
239.31959181239989
 30
0.0
 11
103.4164915839999
 21
239.31959181239989
 31
0.0
  0
LINE
  5
55
  8
DV1_PREDEFINITO
  6
CONTINUOUS
 62
     7
 10
101.4164915839999
 20
237.31959181240001
 30
0.0
 11
101.4164915839999
 21
222.61958110919991
 31
0.0
  0
LINE
  5
56
  8
DV1_PREDEFINITO
  6
CONTINUOUS
 62
     7
 10
103.4164915839999
 20
239.31959181239989
 30
0.0
 11
101.4164915839999
 21
237.31959181240001
 31
0.0
  0
LINE
  5
57
  8
DV1_PREDEFINITO
  6
CONTINUOUS
 62
     7
 10
114.4165004316
 20
237.31959181240001
 30
0.0
 11
112.4165004316
 21
239.31959181239989
 31
0.0
  0
LINE
  5
58
  8
DV1_PREDEFINITO
  6
CONTINUOUS
 62
     7
 10
101.716491584
 20
222.3195811091999
 30
0.0
 11
104.4164934737
 21
222.3195811091999
 31
0.0
  0
LINE
  5
59
  8
DV1_PREDEFINITO
  6
CONTINUOUS
 62
     7
 10
101.4164915839999
 20
213.61958110919991
 30
0.0
 11
101.4164915839999
 21
209.3196061065
 31
0.0
  0
LINE
  5
5A
  8
DV1_PREDEFINITO
  6
CONTINUOUS
 62
     7
 10
101.716491584
 20
213.9195811091999
 30
0.0
 11
101.4164915839999
 21
213.61958110919991
 31
0.0
  0
LINE
  5
5B
  8
DV1_PREDEFINITO
  6
CONTINUOUS
 62
     7
 10
101.4164915839999
 20
222.61958110919991
 30
0.0
 11
101.716491584
 21
222.3195811091999
 31
0.0
  0
LINE
  5
5C
  8
DV1_PREDEFINITO
  6
CONTINUOUS
 62
     7
 10
72.416496060699998
 20
197.3196061065
 30
0.0
 11
72.416496060699998
 21
159.9795302949999
 31
0.0
  0
LINE
  5
5D
  8
DV1_PREDEFINITO
  6
CONTINUOUS
 62
     7
 10
84.416496060699984
 20
209.3196061065
 30
0.0
 11
72.416496060699998
 21
197.3196061065
 31
0.0
  0
LINE
  5
5E
  8
DV1_PREDEFINITO
  6
CONTINUOUS
 62
     7
 10
126.9165004316
 20
209.3196061065
 30
0.0
 11
115.83188457289999
 21
209.3196061065
 31
0.0
  0
LINE
  5
5F
  8
DV1_PREDEFINITO
  6
CONTINUOUS
 62
     7
 10
127.4165004315999
 20
208.8196061065
 30
0.0
 11
126.9165004316
 21
209.3196061065
 31
0.0
  0
LINE
  5
61
  8
DV1_PREDEFINITO
  6
CENTER2
 62
     7
 10
121.4164967907999
 20
101.4791339404
 30
0.0
 11
121.4164967907999
 21
240.75419829329999
 31
0.0
  0
ENDBLK
  5
63
  8
0
  0
ENDSEC
  0
SECTION
  2
ENTITIES
  0
LINE
  5
94
  8
DV1_PREDEFINITO
  6
CONTINUOUS
 62
     7
 10
-49.000000730099998
 20
54.459924188499997
 30
0.0
 11
-7.5742281596999836
 21
9.2516264189000168
 31
0.0
  0
ARC
  5
95
  8
DV1_PREDEFINITO
  6
CONTINUOUS
 62
     7
 10
-11.998000730099999
 20
5.1979857059000087
 30
0.0
 40
6.0001472303604757
 50
1.5841591549
 51
42.5
  0
LINE
  5
96
  8
DV1_PREDEFINITO
  6
CONTINUOUS
 62
     7
 10
-6.000146777199987
 20
5.3638613994000082
 30
0.0
 11
-0.589821869399998
 21
-0.5404721660999883
 31
0.0
  0
ARC
  5
97
  8
DV1_PREDEFINITO
  6
CONTINUOUS
 62
     7
 10
0.0
 20
0.0
 30
0.0
 40
0.8
 50
222.5
 51
317.5
  0
LINE
  5
98
  8
DV1_PREDEFINITO
  6
CONTINUOUS
 62
     7
 10
0.589821869500014
 20
-0.5404721660999883
 30
0.0
 11
6.0000036408000019
 21
5.3637051934000084
 31
0.0
  0
LINE
  5
99
  8
DV1_PREDEFINITO
  6
CONTINUOUS
 62
     7
 10
6.0000036408000019
 20
5.3637051934000084
 30
0.0
 11
6.0000036408000019
 21
5.437073976400014
 31
0.0
  0
LINE
  5
9A
  8
DV1_PREDEFINITO
  6
CONTINUOUS
 62
     7
 10
6.0000036408000019
 20
5.437073976400014
 30
0.0
 11
-18.400508075699989
 21
47.700000000000017
 31
0.0
  0
ARC
  5
9B
  8
DV1_PREDEFINITO
  6
CONTINUOUS
 62
     7
 10
-1.0799999999999981
 20
57.700000000000017
 30
0.0
 40
20.0
 50
135.0
 51
210.0
  0
LINE
  5
9C
  8
DV1_PREDEFINITO
  6
CONTINUOUS
 62
     7
 10
-15.22213562370001
 20
71.842135623800004
 30
0.0
 11
6.0000036408000019
 21
93.064274888299991
 31
0.0
  0
LINE
  5
9D
  8
DV1_PREDEFINITO
  6
CONTINUOUS
 62
     7
 10
6.0000036408000019
 20
93.064274888299991
 30
0.0
 11
6.0000036408000019
 21
103.3
 31
0.0
  0
LINE
  5
9E
  8
DV1_PREDEFINITO
  6
CONTINUOUS
 62
     7
 10
-5.5846122178999869
 20
103.8
 30
0.0
 11
-6.9999963591999972
 21
102.3846158587
 31
0.0
  0
LINE
  5
9F
  8
DV1_PREDEFINITO
  6
CONTINUOUS
 62
     7
 10
-6.9999963591999972
 20
102.3846158587
 30
0.0
 11
-8.4153805004999924
 21
103.8
 31
0.0
  0
LINE
  5
A0
  8
DV1_PREDEFINITO
  6
CONTINUOUS
 62
     7
 10
-8.4153805004999924
 20
103.8
 30
0.0
 11
-6.9999963591999972
 21
105.21538414130001
 31
0.0
  0
LINE
  5
A1
  8
DV1_PREDEFINITO
  6
CONTINUOUS
 62
     7
 10
-6.9999963591999972
 20
105.21538414130001
 30
0.0
 11
-6.9999963591999972
 21
131.79998570590001
 31
0.0
  0
LINE
  5
A2
  8
DV1_PREDEFINITO
  6
CONTINUOUS
 62
     7
 10
-17.000003317099981
 20
116.79997500269999
 30
0.0
 11
-17.000003317099981
 21
108.3999750026999
 31
0.0
  0
LINE
  5
A3
  8
DV1_PREDEFINITO
  6
CONTINUOUS
 62
     7
 10
-17.000003317099981
 20
108.3999750026999
 30
0.0
 11
-19.7000052068
 21
108.3999750026999
 31
0.0
  0
LINE
  5
A4
  8
DV1_PREDEFINITO
  6
CONTINUOUS
 62
     7
 10
-20.000005206800001
 20
103.8
 30
0.0
 11
-37.000000730099998
 21
103.8
 31
0.0
  0
LINE
  5
A5
  8
DV1_PREDEFINITO
  6
CONTINUOUS
 62
     7
 10
-8.9999963591999972
 20
133.79998570590001
 30
0.0
 11
-18.00000520679999
 21
133.79998570590001
 31
0.0
  0
LINE
  5
A6
  8
DV1_PREDEFINITO
  6
CONTINUOUS
 62
     7
 10
-20.000005206800001
 20
131.79998570590001
 30
0.0
 11
-20.000005206800001
 21
117.09997500269991
 31
0.0
  0
LINE
  5
A7
  8
DV1_PREDEFINITO
  6
CONTINUOUS
 62
     7
 10
-18.00000520679999
 20
133.79998570590001
 30
0.0
 11
-20.000005206800001
 21
131.79998570590001
 31
0.0
  0
LINE
  5
A8
  8
DV1_PREDEFINITO
  6
CONTINUOUS
 62
     7
 10
-6.9999963591999972
 20
131.79998570590001
 30
0.0
 11
-8.9999963591999972
 21
133.79998570590001
 31
0.0
  0
LINE
  5
A9
  8
DV1_PREDEFINITO
  6
CONTINUOUS
 62
     7
 10
-19.7000052068
 20
116.79997500269999
 30
0.0
 11
-17.000003317099981
 21
116.79997500269999
 31
0.0
  0
LINE
  5
AA
  8
DV1_PREDEFINITO
  6
CONTINUOUS
 62
     7
 10
-20.000005206800001
 20
108.09997500269991
 30
0.0
 11
-20.000005206800001
 21
103.8
 31
0.0
  0
LINE
  5
AB
  8
DV1_PREDEFINITO
  6
CONTINUOUS
 62
     7
 10
-19.7000052068
 20
108.3999750026999
 30
0.0
 11
-20.000005206800001
 21
108.09997500269991
 31
0.0
  0
LINE
  5
AC
  8
DV1_PREDEFINITO
  6
CONTINUOUS
 62
     7
 10
-20.000005206800001
 20
117.09997500269991
 30
0.0
 11
-19.7000052068
 21
116.79997500269999
 31
0.0
  0
LINE
  5
AD
  8
DV1_PREDEFINITO
  6
CONTINUOUS
 62
     7
 10
-49.000000730099998
 20
91.800000000000011
 30
0.0
 11
-49.000000730099998
 21
54.459924188499997
 31
0.0
  0
LINE
  5
AE
  8
DV1_PREDEFINITO
  6
CONTINUOUS
 62
     7
 10
-37.000000730099998
 20
103.8
 30
0.0
 11
-49.000000730099998
 21
91.800000000000011
 31
0.0
  0
LINE
  5
AF
  8
DV1_PREDEFINITO
  6
CONTINUOUS
 62
     7
 10
5.5000036408000019
 20
103.8
 30
0.0
 11
-5.5846122178999869
 21
103.8
 31
0.0
  0
LINE
  5
B0
  8
DV1_PREDEFINITO
  6
CONTINUOUS
 62
     7
 10
6.0000036408000019
 20
103.3
 30
0.0
 11
5.5000036408000019
 21
103.8
 31
0.0
  0
ENDSEC
  0
EOF
