  0
SECTION
  2
HEADER
  9
$ACADVER
  1
AC1009
  9
$DWGCODEPAGE
  3
ansi_1252
  9
$INSBASE
 10
0.0
 20
0.0
 30
0.0
  9
$EXTMIN
 10
0.0
 20
0.0
 30
0.0
  9
$EXTMAX
 10
594.0
 20
420.0
 30
0.0
  9
$LIMMIN
 10
0.0
 20
0.0
  9
$LIMMAX
 10
594.0
 20
420.0
  9
$ORTHOMODE
 70
     0
  9
$REGENMODE
 70
     1
  9
$FILLMODE
 70
     1
  9
$QTEXTMODE
 70
     0
  9
$MIRRTEXT
 70
     1
  9
$DRAGMODE
 70
     2
  9
$LTSCALE
 40
1.0
  9
$OSMODE
 70
    37
  9
$ATTMODE
 70
     1
  9
$TEXTSIZE
 40
2.5
  9
$TRACEWID
 40
1.0
  9
$TEXTSTYLE
  7
STANDARD
  9
$CLAYER
  8
0
  9
$CELTYPE
  6
BYLAYER
  9
$CECOLOR
 62
   256
  9
$DIMSCALE
 40
1.0
  9
$DIMASZ
 40
2.5
  9
$DIMEXO
 40
0.625
  9
$DIMDLI
 40
3.75
  9
$DIMRND
 40
0.0
  9
$DIMDLE
 40
0.0
  9
$DIMEXE
 40
1.25
  9
$DIMTP
 40
0.0
  9
$DIMTM
 40
0.0
  9
$DIMTXT
 40
2.5
  9
$DIMCEN
 40
2.5
  9
$DIMTSZ
 40
0.0
  9
$DIMTOL
 70
     0
  9
$DIMLIM
 70
     0
  9
$DIMTIH
 70
     0
  9
$DIMTOH
 70
     0
  9
$DIMSE1
 70
     0
  9
$DIMSE2
 70
     0
  9
$DIMTAD
 70
     1
  9
$DIMZIN
 70
     8
  9
$DIMBLK
  1

  9
$DIMASO
 70
     1
  9
$DIMSHO
 70
     1
  9
$DIMPOST
  1

  9
$DIMAPOST
  1

  9
$DIMALT
 70
     0
  9
$DIMALTD
 70
     3
  9
$DIMALTF
 40
0.0393700787
  9
$DIMLFAC
 40
1.0
  9
$DIMTOFL
 70
     1
  9
$DIMTVP
 40
0.0
  9
$DIMTIX
 70
     0
  9
$DIMSOXD
 70
     0
  9
$DIMSAH
 70
     0
  9
$DIMBLK1
  1

  9
$DIMBLK2
  1

  9
$DIMSTYLE
  2
ISO-25
  9
$DIMCLRD
 70
     0
  9
$DIMCLRE
 70
     0
  9
$DIMCLRT
 70
     0
  9
$DIMTFAC
 40
1.0
  9
$DIMGAP
 40
0.625
  9
$LUNITS
 70
     2
  9
$LUPREC
 70
     4
  9
$SKETCHINC
 40
1.0
  9
$FILLETRAD
 40
10.0
  9
$AUNITS
 70
     0
  9
$AUPREC
 70
     0
  9
$MENU
  1
.
  9
$ELEVATION
 40
0.0
  9
$PELEVATION
 40
0.0
  9
$THICKNESS
 40
0.0
  9
$LIMCHECK
 70
     0
  9
$CHAMFERA
 40
0.0
  9
$CHAMFERB
 40
0.0
  9
$SKPOLY
 70
     0
  9
$TDCREATE
 40
2458339.361430741
  9
$TDUPDATE
 40
2458339.361432014
  9
$TDINDWG
 40
0.0000000116
  9
$TDUSRTIMER
 40
0.0000000116
  9
$USRTIMER
 70
     1
  9
$ANGBASE
 50
0.0
  9
$ANGDIR
 70
     0
  9
$PDMODE
 70
     0
  9
$PDSIZE
 40
0.0
  9
$PLINEWID
 40
0.0
  9
$COORDS
 70
     1
  9
$SPLFRAME
 70
     0
  9
$SPLINETYPE
 70
     6
  9
$SPLINESEGS
 70
     8
  9
$ATTDIA
 70
     0
  9
$ATTREQ
 70
     1
  9
$HANDLING
 70
     1
  9
$HANDSEED
  5
95
  9
$SURFTAB1
 70
     6
  9
$SURFTAB2
 70
     6
  9
$SURFTYPE
 70
     6
  9
$SURFU
 70
     6
  9
$SURFV
 70
     6
  9
$UCSNAME
  2

  9
$UCSORG
 10
0.0
 20
0.0
 30
0.0
  9
$UCSXDIR
 10
1.0
 20
0.0
 30
0.0
  9
$UCSYDIR
 10
0.0
 20
1.0
 30
0.0
  9
$PUCSNAME
  2

  9
$PUCSORG
 10
0.0
 20
0.0
 30
0.0
  9
$PUCSXDIR
 10
1.0
 20
0.0
 30
0.0
  9
$PUCSYDIR
 10
0.0
 20
1.0
 30
0.0
  9
$USERI1
 70
     0
  9
$USERI2
 70
     0
  9
$USERI3
 70
     0
  9
$USERI4
 70
     0
  9
$USERI5
 70
     0
  9
$USERR1
 40
0.0
  9
$USERR2
 40
0.0
  9
$USERR3
 40
0.0
  9
$USERR4
 40
0.0
  9
$USERR5
 40
0.0
  9
$WORLDVIEW
 70
     1
  9
$SHADEDGE
 70
     3
  9
$SHADEDIF
 70
    70
  9
$TILEMODE
 70
     1
  9
$MAXACTVP
 70
    64
  9
$PLIMCHECK
 70
     0
  9
$PEXTMIN
 10
0.0
 20
0.0
 30
0.0
  9
$PEXTMAX
 10
594.0
 20
420.0
 30
0.0
  9
$PLIMMIN
 10
0.0
 20
0.0
  9
$PLIMMAX
 10
594.0
 20
420.0
  9
$UNITMODE
 70
     0
  9
$VISRETAIN
 70
     1
  9
$PLINEGEN
 70
     0
  9
$PSLTSCALE
 70
     1
  0
ENDSEC
  0
SECTION
  2
TABLES
  0
TABLE
  2
VPORT
 70
     1
  0
VPORT
  2
*ACTIVE
 70
     0
 10
0.0
 20
0.0
 11
1.0
 21
1.0
 12
344.1869158879
 22
148.5
 13
0.0
 23
0.0
 14
10.0
 24
10.0
 15
10.0
 25
10.0
 16
0.0
 26
0.0
 36
1.0
 17
0.0
 27
0.0
 37
0.0
 40
297.0
 41
1.9729729729
 42
50.0
 43
0.0
 44
0.0
 50
0.0
 51
0.0
 71
     0
 72
   100
 73
     1
 74
     3
 75
     0
 76
     0
 77
     0
 78
     0
  0
ENDTAB
  0
TABLE
  2
LTYPE
 70
     1
  0
LTYPE
  2
CONTINUOUS
 70
     0
  3
Solid line
 72
    65
 73
     0
 40
0.0
  0
ENDTAB
  0
TABLE
  2
LAYER
 70
     2
  0
LAYER
  2
0
 70
     0
 62
     7
  6
CONTINUOUS
  0
LAYER
  2
PREDEFINITO
 70
     0
 62
     7
  6
CONTINUOUS
  0
ENDTAB
  0
TABLE
  2
STYLE
 70
     1
  0
STYLE
  2
STANDARD
 70
     0
 40
0.0
 41
1.0
 50
0.0
 71
     0
 42
2.5
  3
txt
  4

  0
ENDTAB
  0
TABLE
  2
VIEW
 70
     0
  0
ENDTAB
  0
TABLE
  2
UCS
 70
     0
  0
ENDTAB
  0
TABLE
  2
APPID
 70
     1
  0
APPID
  2
ACAD
 70
     0
  0
ENDTAB
  0
TABLE
  2
DIMSTYLE
 70
     1
  0
DIMSTYLE
  2
ISO-25
 70
     0
  3

  4

  5

  6

  7

 40
1.0
 41
2.5
 42
0.625
 43
3.75
 44
1.25
 45
0.0
 46
0.0
 47
0.0
 48
0.0
140
2.5
141
2.5
142
0.0
143
0.0393700787
144
1.0
145
0.0
146
1.0
147
0.625
 71
     0
 72
     0
 73
     0
 74
     0
 75
     0
 76
     0
 77
     1
 78
     8
170
     0
171
     3
172
     1
173
     0
174
     0
175
     0
176
     0
177
     0
178
     0
  0
ENDTAB
  0
ENDSEC
  0
SECTION
  2
BLOCKS
  0
BLOCK
  8
0
  2
$MODEL_SPACE
 70
     0
 10
0.0
 20
0.0
 30
0.0
  3
$MODEL_SPACE
  1

  0
ENDBLK
  5
21
  8
0
  0
BLOCK
 67
     1
  8
0
  2
$PAPER_SPACE
 70
     0
 10
0.0
 20
0.0
 30
0.0
  3
$PAPER_SPACE
  1

  0
ENDBLK
  5
1D
 67
     1
  8
0
  0
ENDSEC
  0
SECTION
  2
ENTITIES
  0
LINE
  5
6F
  8
PREDEFINITO
  6
CONTINUOUS
 62
     7
 10
0.3
 20
-51.0397418143
 30
0.0
 11
0.3
 21
-40.5325624568
 31
0.0
  0
ARC
  5
70
  8
PREDEFINITO
  6
CONTINUOUS
 62
     7
 10
-10.0
 20
-134.0
 30
0.0
 40
1.000000000000002
 50
194.0
 51
346.0
  0
LINE
  5
71
  8
PREDEFINITO
  6
CONTINUOUS
 62
     7
 10
-9.0297042737
 20
-134.2419218956
 30
0.0
 11
-3.9005480728
 21
-113.67
 31
0.0
  0
LINE
  5
72
  8
PREDEFINITO
  6
CONTINUOUS
 62
     7
 10
-3.9005480728
 20
-113.67
 30
0.0
 11
-8.2426406871
 21
-109.3279073857
 31
0.0
  0
ARC
  5
73
  8
PREDEFINITO
  6
CONTINUOUS
 62
     7
 10
-4.0
 20
-105.0852666986
 30
0.0
 40
5.99999999999999
 50
180.0
 51
225.0
  0
LINE
  5
74
  8
PREDEFINITO
  6
CONTINUOUS
 62
     7
 10
-10.0
 20
-105.0852666986
 30
0.0
 11
-10.0
 21
-60.6232428594
 31
0.0
  0
LINE
  5
75
  8
PREDEFINITO
  6
CONTINUOUS
 62
     7
 10
-20.3
 20
-94.7557391318
 30
0.0
 11
-16.1944123906
 21
-111.2223516367
 31
0.0
  0
ARC
  5
76
  8
PREDEFINITO
  6
CONTINUOUS
 62
     7
 10
-22.0161867482
 20
-112.6738830103
 30
0.0
 40
5.999999999999997
 50
350.4435356908
 51
14.0
  0
LINE
  5
77
  8
PREDEFINITO
  6
CONTINUOUS
 62
     7
 10
-16.0994519272
 20
-113.67
 30
0.0
 11
-10.9702957263
 21
-134.2419218956
 31
0.0
  0
ARC
  5
78
  8
PREDEFINITO
  6
CONTINUOUS
 62
     7
 10
-4.0
 20
-60.6232428594
 30
0.0
 40
5.999999999999998
 50
121.0
 51
180.0
  0
LINE
  5
79
  8
PREDEFINITO
  6
CONTINUOUS
 62
     7
 10
-7.0902284495
 20
-55.4802390552
 30
0.0
 11
0.3
 21
-51.0397418143
 31
0.0
  0
ARC
  5
7A
  8
PREDEFINITO
  6
CONTINUOUS
 62
     7
 10
5.5892901157
 20
-37.7
 30
0.0
 40
6.000000000000012
 50
158.6774756226
 51
208.1702919613
  0
LINE
  5
7B
  8
PREDEFINITO
  6
CONTINUOUS
 62
     7
 10
0.0
 20
-20.5
 30
0.0
 11
0.0
 21
-35.5182951615
 31
0.0
  0
LINE
  5
7C
  8
PREDEFINITO
  6
CONTINUOUS
 62
     7
 10
-3.5
 20
-17.0
 30
0.0
 11
0.0
 21
-20.5
 31
0.0
  0
LINE
  5
7D
  8
PREDEFINITO
  6
CONTINUOUS
 62
     7
 10
-3.5
 20
-15.5
 30
0.0
 11
-3.5
 21
-17.0
 31
0.0
  0
LINE
  5
7E
  8
PREDEFINITO
  6
CONTINUOUS
 62
     7
 10
0.0
 20
-12.0
 30
0.0
 11
-3.5
 21
-15.5
 31
0.0
  0
LINE
  5
7F
  8
PREDEFINITO
  6
CONTINUOUS
 62
     7
 10
-20.3
 20
-40.5325624568
 30
0.0
 11
-20.3
 21
-94.7557391318
 31
0.0
  0
LINE
  5
80
  8
PREDEFINITO
  6
CONTINUOUS
 62
     7
 10
-16.5
 20
-15.5
 30
0.0
 11
-20.0
 21
-12.0
 31
0.0
  0
LINE
  5
81
  8
PREDEFINITO
  6
CONTINUOUS
 62
     7
 10
-16.5
 20
-17.0
 30
0.0
 11
-16.5
 21
-15.5
 31
0.0
  0
LINE
  5
82
  8
PREDEFINITO
  6
CONTINUOUS
 62
     7
 10
-20.0
 20
-20.5
 30
0.0
 11
-16.5
 21
-17.0
 31
0.0
  0
LINE
  5
83
  8
PREDEFINITO
  6
CONTINUOUS
 62
     7
 10
-20.0
 20
-35.5182951615
 30
0.0
 11
-20.0
 21
-20.5
 31
0.0
  0
LINE
  5
84
  8
PREDEFINITO
  6
CONTINUOUS
 62
     7
 10
-20.0
 20
-12.0
 30
0.0
 11
-20.0
 21
-1.0
 31
0.0
  0
ARC
  5
85
  8
PREDEFINITO
  6
CONTINUOUS
 62
     7
 10
-25.5892901157
 20
-37.7
 30
0.0
 40
5.999999999999999
 50
331.8297080387
 51
21.3225243774
  0
LINE
  5
86
  8
PREDEFINITO
  6
CONTINUOUS
 62
     7
 10
-1.0
 20
0.0
 30
0.0
 11
-19.0
 21
0.0
 31
0.0
  0
LINE
  5
87
  8
PREDEFINITO
  6
CONTINUOUS
 62
     7
 10
0.0
 20
-1.0
 30
0.0
 11
0.0
 21
-12.0
 31
0.0
  0
LINE
  5
88
  8
PREDEFINITO
  6
CONTINUOUS
 62
     7
 10
-20.0
 20
-1.0
 30
0.0
 11
-19.0
 21
0.0
 31
0.0
  0
LINE
  5
89
  8
PREDEFINITO
  6
CONTINUOUS
 62
     7
 10
-1.0
 20
0.0
 30
0.0
 11
0.0
 21
-1.0
 31
0.0
  0
ENDSEC
  0
EOF
